ISO-10303-21;
HEADER;
FILE_DESCRIPTION (( 'STEP AP214' ),
    '1' );
FILE_NAME ('P-108-Placeholder 48V 100Ah.STEP',
    '2021-09-24T11:43:58',
    ( '' ),
    ( '' ),
    'SwSTEP 2.0',
    'SolidWorks 2021',
    '' );
FILE_SCHEMA (( 'AUTOMOTIVE_DESIGN' ));
ENDSEC;

DATA;
#1 = SURFACE_STYLE_FILL_AREA ( #217 ) ;
#2 = FILL_AREA_STYLE_COLOUR ( '', #182 ) ;
#3 = DIRECTION ( 'NONE',  ( 0.000000000000000000, -0.000000000000000000, 1.000000000000000000 ) ) ;
#4 = DIRECTION ( 'NONE',  ( 0.000000000000000000, 0.000000000000000000, 1.000000000000000000 ) ) ;
#5 = DIRECTION ( 'NONE',  ( 0.000000000000000000, 0.000000000000000000, -1.000000000000000000 ) ) ;
#6 = DIRECTION ( 'NONE',  ( -1.000000000000000000, 0.000000000000000000, 1.088453945710937739E-16 ) ) ;
#7 =( GEOMETRIC_REPRESENTATION_CONTEXT ( 3 ) GLOBAL_UNCERTAINTY_ASSIGNED_CONTEXT ( ( #131 ) ) GLOBAL_UNIT_ASSIGNED_CONTEXT ( ( #15, #98, #149 ) ) REPRESENTATION_CONTEXT ( 'NONE', 'WORKASPACE' ) );
#8 =( LENGTH_UNIT ( ) NAMED_UNIT ( * ) SI_UNIT ( .MILLI., .METRE. ) );
#9 = CARTESIAN_POINT ( 'NONE',  ( -255.0000000000001137, 0.000000000000000000, 175.0000000000000284 ) ) ;
#10 = SHAPE_DEFINITION_REPRESENTATION ( #31, #203 ) ;
#11 = ORIENTED_EDGE ( 'NONE', *, *, #163, .T. ) ;
#12 = MANIFOLD_SOLID_BREP ( 'Boss-Extrude1', #32 ) ;
#13 = VECTOR ( 'NONE', #5, 1000.000000000000000 ) ;
#14 = VECTOR ( 'NONE', #116, 1000.000000000000000 ) ;
#15 =( LENGTH_UNIT ( ) NAMED_UNIT ( * ) SI_UNIT ( .MILLI., .METRE. ) );
#16 = EDGE_CURVE ( 'NONE', #52, #104, #68, .T. ) ;
#17 = SURFACE_STYLE_FILL_AREA ( #109 ) ;
#18 = ORIENTED_EDGE ( 'NONE', *, *, #37, .F. ) ;
#19 = CARTESIAN_POINT ( 'NONE',  ( 254.9999999999998863, 260.0000000000000000, 174.9999999999999716 ) ) ;
#20 =( LENGTH_UNIT ( ) NAMED_UNIT ( * ) SI_UNIT ( .MILLI., .METRE. ) );
#21 = DIRECTION ( 'NONE',  ( 0.000000000000000000, 1.000000000000000000, 0.000000000000000000 ) ) ;
#22 = DIRECTION ( 'NONE',  ( -1.000000000000000000, 0.000000000000000000, 1.088453945710937739E-16 ) ) ;
#23 = DIRECTION ( 'NONE',  ( -0.000000000000000000, -1.000000000000000000, -0.000000000000000000 ) ) ;
#24 = DIRECTION ( 'NONE',  ( 1.000000000000000000, -0.000000000000000000, 0.000000000000000000 ) ) ;
#25 = CARTESIAN_POINT ( 'NONE',  ( -255.0000000000001137, 0.000000000000000000, -174.9999999999999716 ) ) ;
#26 = DIRECTION ( 'NONE',  ( 1.000000000000000000, 0.000000000000000000, 0.000000000000000000 ) ) ;
#27 = ADVANCED_FACE ( 'NONE', ( #172 ), #105, .F. ) ;
#28 = CARTESIAN_POINT ( 'NONE',  ( 254.9999999999998863, 0.000000000000000000, 174.9999999999999716 ) ) ;
#29 = ORIENTED_EDGE ( 'NONE', *, *, #184, .T. ) ;
#30 = EDGE_CURVE ( 'NONE', #168, #64, #72, .T. ) ;
#31 = PRODUCT_DEFINITION_SHAPE ( 'NONE', 'NONE',  #67 ) ;
#32 = CLOSED_SHELL ( 'NONE', ( #150, #108, #178, #36, #122, #27 ) ) ;
#33 = ORIENTED_EDGE ( 'NONE', *, *, #99, .T. ) ;
#34 = CARTESIAN_POINT ( 'NONE',  ( -255.0000000000001137, 260.0000000000000000, 175.0000000000000284 ) ) ;
#35 = PRESENTATION_STYLE_ASSIGNMENT (( #69 ) ) ;
#36 = ADVANCED_FACE ( 'NONE', ( #123 ), #188, .F. ) ;
#37 = EDGE_CURVE ( 'NONE', #101, #162, #207, .T. ) ;
#38 = ORIENTED_EDGE ( 'NONE', *, *, #63, .F. ) ;
#39 = FILL_AREA_STYLE_COLOUR ( '', #120 ) ;
#40 = VECTOR ( 'NONE', #22, 1000.000000000000000 ) ;
#41 = DIRECTION ( 'NONE',  ( 1.088453945710937616E-16, -0.000000000000000000, 1.000000000000000000 ) ) ;
#42 = DIRECTION ( 'NONE',  ( -1.000000000000000000, 0.000000000000000000, 1.088453945710937616E-16 ) ) ;
#43 = EDGE_CURVE ( 'NONE', #168, #153, #204, .T. ) ;
#44 = PLANE ( 'NONE',  #53 ) ;
#45 = ORIENTED_EDGE ( 'NONE', *, *, #211, .T. ) ;
#46 = APPLICATION_PROTOCOL_DEFINITION ( 'draft international standard', 'automotive_design', 1998, #102 ) ;
#47 = AXIS2_PLACEMENT_3D ( 'NONE', #145, #24, #94 ) ;
#48 = LINE ( 'NONE', #28, #125 ) ;
#49 =( GEOMETRIC_REPRESENTATION_CONTEXT ( 3 ) GLOBAL_UNCERTAINTY_ASSIGNED_CONTEXT ( ( #146 ) ) GLOBAL_UNIT_ASSIGNED_CONTEXT ( ( #8, #173, #160 ) ) REPRESENTATION_CONTEXT ( 'NONE', 'WORKASPACE' ) );
#50 = PRESENTATION_STYLE_ASSIGNMENT (( #185 ) ) ;
#51 = ORIENTED_EDGE ( 'NONE', *, *, #82, .T. ) ;
#52 = VERTEX_POINT ( 'NONE', #58 ) ;
#53 = AXIS2_PLACEMENT_3D ( 'NONE', #93, #157, #4 ) ;
#54 = VERTEX_POINT ( 'NONE', #9 ) ;
#55 = ORIENTED_EDGE ( 'NONE', *, *, #43, .T. ) ;
#56 = LINE ( 'NONE', #77, #118 ) ;
#57 = AXIS2_PLACEMENT_3D ( 'NONE', #66, #115, #26 ) ;
#58 = CARTESIAN_POINT ( 'NONE',  ( -255.0000000000001137, 260.0000000000000000, -174.9999999999999716 ) ) ;
#59 = DIRECTION ( 'NONE',  ( 1.000000000000000000, 0.000000000000000000, -1.088453945710937616E-16 ) ) ;
#60 = CARTESIAN_POINT ( 'NONE',  ( -255.0000000000001137, 260.0000000000000000, -174.9999999999999716 ) ) ;
#61 = MECHANICAL_DESIGN_GEOMETRIC_PRESENTATION_REPRESENTATION (  '', ( #166 ), #7 ) ;
#62 = PRODUCT_DEFINITION_CONTEXT ( 'detailed design', #75, 'design' ) ;
#63 = EDGE_CURVE ( 'NONE', #153, #52, #74, .T. ) ;
#64 = VERTEX_POINT ( 'NONE', #96 ) ;
#65 = EDGE_LOOP ( 'NONE', ( #196, #121, #85, #81 ) ) ;
#66 = CARTESIAN_POINT ( 'NONE',  ( 0.000000000000000000, 0.000000000000000000, 0.000000000000000000 ) ) ;
#67 = PRODUCT_DEFINITION ( 'UNKNOWN', '', #133, #62 ) ;
#68 = LINE ( 'NONE', #34, #91 ) ;
#69 = SURFACE_STYLE_USAGE ( .BOTH. , #139 ) ;
#70 = EDGE_LOOP ( 'NONE', ( #119, #18, #152, #193 ) ) ;
#71 = AXIS2_PLACEMENT_3D ( 'NONE', #114, #41, #59 ) ;
#72 = LINE ( 'NONE', #19, #216 ) ;
#73 = LINE ( 'NONE', #79, #14 ) ;
#74 = LINE ( 'NONE', #126, #40 ) ;
#75 = APPLICATION_CONTEXT ( 'automotive_design' ) ;
#76 =( GEOMETRIC_REPRESENTATION_CONTEXT ( 3 ) GLOBAL_UNCERTAINTY_ASSIGNED_CONTEXT ( ( #156 ) ) GLOBAL_UNIT_ASSIGNED_CONTEXT ( ( #117, #83, #195 ) ) REPRESENTATION_CONTEXT ( 'NONE', 'WORKASPACE' ) );
#77 = CARTESIAN_POINT ( 'NONE',  ( 254.9999999999998863, 260.0000000000000000, -175.0000000000000284 ) ) ;
#78 = DIRECTION ( 'NONE',  ( -0.000000000000000000, -0.000000000000000000, 1.000000000000000000 ) ) ;
#79 = CARTESIAN_POINT ( 'NONE',  ( 254.9999999999998863, 260.0000000000000000, 174.9999999999999716 ) ) ;
#80 = SURFACE_STYLE_USAGE ( .BOTH. , #134 ) ;
#81 = ORIENTED_EDGE ( 'NONE', *, *, #30, .T. ) ;
#82 = EDGE_CURVE ( 'NONE', #162, #54, #127, .T. ) ;
#83 =( NAMED_UNIT ( * ) PLANE_ANGLE_UNIT ( ) SI_UNIT ( $, .RADIAN. ) );
#84 = STYLED_ITEM ( 'NONE', ( #50 ), #36 ) ;
#85 = ORIENTED_EDGE ( 'NONE', *, *, #43, .F. ) ;
#86 = EDGE_LOOP ( 'NONE', ( #171, #154, #38, #187 ) ) ;
#87 = AXIS2_PLACEMENT_3D ( 'NONE', #143, #21, #112 ) ;
#88 = EDGE_CURVE ( 'NONE', #153, #101, #56, .T. ) ;
#89 = DIRECTION ( 'NONE',  ( -0.000000000000000000, -1.000000000000000000, -0.000000000000000000 ) ) ;
#90 = DIRECTION ( 'NONE',  ( 0.000000000000000000, 1.000000000000000000, 0.000000000000000000 ) ) ;
#91 = VECTOR ( 'NONE', #137, 1000.000000000000000 ) ;
#92 = COLOUR_RGB ( '',0.1019607843137254888, 0.1019607843137254888, 0.1019607843137254888 ) ;
#93 = CARTESIAN_POINT ( 'NONE',  ( 254.9999999999998863, 260.0000000000000000, 174.9999999999999716 ) ) ;
#94 = DIRECTION ( 'NONE',  ( 0.000000000000000000, 0.000000000000000000, -1.000000000000000000 ) ) ;
#95 = CARTESIAN_POINT ( 'NONE',  ( 254.9999999999998863, 260.0000000000000000, 174.9999999999999716 ) ) ;
#96 = CARTESIAN_POINT ( 'NONE',  ( 254.9999999999998863, 0.000000000000000000, 174.9999999999999716 ) ) ;
#97 = LINE ( 'NONE', #111, #129 ) ;
#98 =( NAMED_UNIT ( * ) PLANE_ANGLE_UNIT ( ) SI_UNIT ( $, .RADIAN. ) );
#99 = EDGE_CURVE ( 'NONE', #104, #54, #97, .T. ) ;
#100 = VECTOR ( 'NONE', #6, 1000.000000000000000 ) ;
#101 = VERTEX_POINT ( 'NONE', #159 ) ;
#102 = APPLICATION_CONTEXT ( 'automotive_design' ) ;
#103 = PRODUCT ( 'P-108-Placeholder 48V 100Ah', 'P-108-Placeholder 48V 100Ah', '', ( #161 ) ) ;
#104 = VERTEX_POINT ( 'NONE', #208 ) ;
#105 = PLANE ( 'NONE',  #174 ) ;
#106 = STYLED_ITEM ( 'NONE', ( #35 ), #12 ) ;
#107 = EDGE_LOOP ( 'NONE', ( #186, #29, #55, #200 ) ) ;
#108 = ADVANCED_FACE ( 'NONE', ( #144 ), #110, .F. ) ;
#109 = FILL_AREA_STYLE ('',( #39 ) ) ;
#110 = PLANE ( 'NONE',  #205 ) ;
#111 = CARTESIAN_POINT ( 'NONE',  ( -255.0000000000001137, 260.0000000000000000, 175.0000000000000284 ) ) ;
#112 = DIRECTION ( 'NONE',  ( 0.000000000000000000, -0.000000000000000000, 1.000000000000000000 ) ) ;
#113 = VECTOR ( 'NONE', #23, 1000.000000000000000 ) ;
#114 = CARTESIAN_POINT ( 'NONE',  ( 254.9999999999998863, 260.0000000000000000, -175.0000000000000284 ) ) ;
#115 = DIRECTION ( 'NONE',  ( 0.000000000000000000, 0.000000000000000000, 1.000000000000000000 ) ) ;
#116 = DIRECTION ( 'NONE',  ( 1.000000000000000000, -0.000000000000000000, -1.088453945710937739E-16 ) ) ;
#117 =( LENGTH_UNIT ( ) NAMED_UNIT ( * ) SI_UNIT ( .MILLI., .METRE. ) );
#118 = VECTOR ( 'NONE', #175, 1000.000000000000000 ) ;
#119 = ORIENTED_EDGE ( 'NONE', *, *, #82, .F. ) ;
#120 = COLOUR_RGB ( '',0.2000000000000000111, 0.2000000000000000111, 0.2000000000000000111 ) ;
#121 = ORIENTED_EDGE ( 'NONE', *, *, #88, .F. ) ;
#122 = ADVANCED_FACE ( 'NONE', ( #176 ), #124, .T. ) ;
#123 = FACE_OUTER_BOUND ( 'NONE', #86, .T. ) ;
#124 = PLANE ( 'NONE',  #87 ) ;
#125 = VECTOR ( 'NONE', #214, 1000.000000000000000 ) ;
#126 = CARTESIAN_POINT ( 'NONE',  ( 254.9999999999998863, 260.0000000000000000, -175.0000000000000284 ) ) ;
#127 = LINE ( 'NONE', #202, #141 ) ;
#128 = CARTESIAN_POINT ( 'NONE',  ( 254.9999999999998863, 260.0000000000000000, -175.0000000000000284 ) ) ;
#129 = VECTOR ( 'NONE', #189, 1000.000000000000000 ) ;
#130 = DIRECTION ( 'NONE',  ( -1.088453945710937616E-16, 0.000000000000000000, -1.000000000000000000 ) ) ;
#131 = UNCERTAINTY_MEASURE_WITH_UNIT (LENGTH_MEASURE( 1.000000000000000082E-05 ), #15, 'distance_accuracy_value', 'NONE');
#132 = EDGE_LOOP ( 'NONE', ( #51, #165, #181, #11 ) ) ;
#133 = PRODUCT_DEFINITION_FORMATION_WITH_SPECIFIED_SOURCE ( 'ANY', '', #103, .NOT_KNOWN. ) ;
#134 = SURFACE_SIDE_STYLE ('',( #164 ) ) ;
#135 = PRESENTATION_STYLE_ASSIGNMENT (( #80 ) ) ;
#136 =( GEOMETRIC_REPRESENTATION_CONTEXT ( 3 ) GLOBAL_UNCERTAINTY_ASSIGNED_CONTEXT ( ( #213 ) ) GLOBAL_UNIT_ASSIGNED_CONTEXT ( ( #20, #138, #199 ) ) REPRESENTATION_CONTEXT ( 'NONE', 'WORKASPACE' ) );
#137 = DIRECTION ( 'NONE',  ( -0.000000000000000000, -0.000000000000000000, 1.000000000000000000 ) ) ;
#138 =( NAMED_UNIT ( * ) PLANE_ANGLE_UNIT ( ) SI_UNIT ( $, .RADIAN. ) );
#139 = SURFACE_SIDE_STYLE ('',( #1 ) ) ;
#140 = PRESENTATION_LAYER_ASSIGNMENT (  '', '', ( #106 ) ) ;
#141 = VECTOR ( 'NONE', #78, 1000.000000000000000 ) ;
#142 = ORIENTED_EDGE ( 'NONE', *, *, #184, .F. ) ;
#143 = CARTESIAN_POINT ( 'NONE',  ( 0.000000000000000000, 260.0000000000000000, 0.000000000000000000 ) ) ;
#144 = FACE_OUTER_BOUND ( 'NONE', #197, .T. ) ;
#145 = CARTESIAN_POINT ( 'NONE',  ( -255.0000000000001137, 260.0000000000000000, 175.0000000000000284 ) ) ;
#146 = UNCERTAINTY_MEASURE_WITH_UNIT (LENGTH_MEASURE( 1.000000000000000082E-05 ), #8, 'distance_accuracy_value', 'NONE');
#147 = PRESENTATION_LAYER_ASSIGNMENT (  '', '', ( #166 ) ) ;
#148 = LINE ( 'NONE', #212, #169 ) ;
#149 =( NAMED_UNIT ( * ) SI_UNIT ( $, .STERADIAN. ) SOLID_ANGLE_UNIT ( ) );
#150 = ADVANCED_FACE ( 'NONE', ( #206 ), #177, .F. ) ;
#151 = SURFACE_SIDE_STYLE ('',( #17 ) ) ;
#152 = ORIENTED_EDGE ( 'NONE', *, *, #215, .F. ) ;
#153 = VERTEX_POINT ( 'NONE', #128 ) ;
#154 = ORIENTED_EDGE ( 'NONE', *, *, #163, .F. ) ;
#155 = ORIENTED_EDGE ( 'NONE', *, *, #30, .F. ) ;
#156 = UNCERTAINTY_MEASURE_WITH_UNIT (LENGTH_MEASURE( 1.000000000000000082E-05 ), #117, 'distance_accuracy_value', 'NONE');
#157 = DIRECTION ( 'NONE',  ( -1.000000000000000000, 0.000000000000000000, 0.000000000000000000 ) ) ;
#158 = LINE ( 'NONE', #60, #113 ) ;
#159 = CARTESIAN_POINT ( 'NONE',  ( 254.9999999999998863, 0.000000000000000000, -175.0000000000000284 ) ) ;
#160 =( NAMED_UNIT ( * ) SI_UNIT ( $, .STERADIAN. ) SOLID_ANGLE_UNIT ( ) );
#161 = PRODUCT_CONTEXT ( 'NONE', #102, 'mechanical' ) ;
#162 = VERTEX_POINT ( 'NONE', #25 ) ;
#163 = EDGE_CURVE ( 'NONE', #52, #162, #158, .T. ) ;
#164 = SURFACE_STYLE_FILL_AREA ( #180 ) ;
#165 = ORIENTED_EDGE ( 'NONE', *, *, #99, .F. ) ;
#166 = STYLED_ITEM ( 'NONE', ( #135 ), #203 ) ;
#167 = FILL_AREA_STYLE_COLOUR ( '', #92 ) ;
#168 = VERTEX_POINT ( 'NONE', #95 ) ;
#169 = VECTOR ( 'NONE', #194, 1000.000000000000000 ) ;
#170 = CARTESIAN_POINT ( 'NONE',  ( 0.000000000000000000, 0.000000000000000000, 0.000000000000000000 ) ) ;
#171 = ORIENTED_EDGE ( 'NONE', *, *, #37, .T. ) ;
#172 = FACE_OUTER_BOUND ( 'NONE', #70, .T. ) ;
#173 =( NAMED_UNIT ( * ) PLANE_ANGLE_UNIT ( ) SI_UNIT ( $, .RADIAN. ) );
#174 = AXIS2_PLACEMENT_3D ( 'NONE', #170, #90, #3 ) ;
#175 = DIRECTION ( 'NONE',  ( -0.000000000000000000, -1.000000000000000000, -0.000000000000000000 ) ) ;
#176 = FACE_OUTER_BOUND ( 'NONE', #107, .T. ) ;
#177 = PLANE ( 'NONE',  #47 ) ;
#178 = ADVANCED_FACE ( 'NONE', ( #192 ), #44, .F. ) ;
#179 = CARTESIAN_POINT ( 'NONE',  ( 254.9999999999998863, 260.0000000000000000, 174.9999999999999716 ) ) ;
#180 = FILL_AREA_STYLE ('',( #167 ) ) ;
#181 = ORIENTED_EDGE ( 'NONE', *, *, #16, .F. ) ;
#182 = COLOUR_RGB ( '',0.1019607843137254888, 0.1019607843137254888, 0.1019607843137254888 ) ;
#183 = MECHANICAL_DESIGN_GEOMETRIC_PRESENTATION_REPRESENTATION (  '', ( #106 ), #136 ) ;
#184 = EDGE_CURVE ( 'NONE', #104, #168, #73, .T. ) ;
#185 = SURFACE_STYLE_USAGE ( .BOTH. , #151 ) ;
#186 = ORIENTED_EDGE ( 'NONE', *, *, #16, .T. ) ;
#187 = ORIENTED_EDGE ( 'NONE', *, *, #88, .T. ) ;
#188 = PLANE ( 'NONE',  #71 ) ;
#189 = DIRECTION ( 'NONE',  ( -0.000000000000000000, -1.000000000000000000, -0.000000000000000000 ) ) ;
#190 = CARTESIAN_POINT ( 'NONE',  ( 254.9999999999998863, 0.000000000000000000, -175.0000000000000284 ) ) ;
#191 = CARTESIAN_POINT ( 'NONE',  ( 254.9999999999998863, 260.0000000000000000, 174.9999999999999716 ) ) ;
#192 = FACE_OUTER_BOUND ( 'NONE', #65, .T. ) ;
#193 = ORIENTED_EDGE ( 'NONE', *, *, #211, .F. ) ;
#194 = DIRECTION ( 'NONE',  ( 1.000000000000000000, -0.000000000000000000, -1.088453945710937739E-16 ) ) ;
#195 =( NAMED_UNIT ( * ) SI_UNIT ( $, .STERADIAN. ) SOLID_ANGLE_UNIT ( ) );
#196 = ORIENTED_EDGE ( 'NONE', *, *, #215, .T. ) ;
#197 = EDGE_LOOP ( 'NONE', ( #45, #155, #142, #33 ) ) ;
#198 = MECHANICAL_DESIGN_GEOMETRIC_PRESENTATION_REPRESENTATION (  '', ( #84 ), #49 ) ;
#199 =( NAMED_UNIT ( * ) SI_UNIT ( $, .STERADIAN. ) SOLID_ANGLE_UNIT ( ) );
#200 = ORIENTED_EDGE ( 'NONE', *, *, #63, .T. ) ;
#201 = PRODUCT_RELATED_PRODUCT_CATEGORY ( 'part', '', ( #103 ) ) ;
#202 = CARTESIAN_POINT ( 'NONE',  ( -255.0000000000001137, 0.000000000000000000, 175.0000000000000284 ) ) ;
#203 = ADVANCED_BREP_SHAPE_REPRESENTATION ( 'P-108-Placeholder 48V 100Ah', ( #12, #57 ), #76 ) ;
#204 = LINE ( 'NONE', #179, #13 ) ;
#205 = AXIS2_PLACEMENT_3D ( 'NONE', #191, #130, #42 ) ;
#206 = FACE_OUTER_BOUND ( 'NONE', #132, .T. ) ;
#207 = LINE ( 'NONE', #190, #100 ) ;
#208 = CARTESIAN_POINT ( 'NONE',  ( -255.0000000000001137, 260.0000000000000000, 175.0000000000000284 ) ) ;
#209 = PRESENTATION_LAYER_ASSIGNMENT (  '', '', ( #84 ) ) ;
#210 = APPLICATION_PROTOCOL_DEFINITION ( 'draft international standard', 'automotive_design', 1998, #75 ) ;
#211 = EDGE_CURVE ( 'NONE', #54, #64, #148, .T. ) ;
#212 = CARTESIAN_POINT ( 'NONE',  ( 254.9999999999998863, 0.000000000000000000, 174.9999999999999716 ) ) ;
#213 = UNCERTAINTY_MEASURE_WITH_UNIT (LENGTH_MEASURE( 1.000000000000000082E-05 ), #20, 'distance_accuracy_value', 'NONE');
#214 = DIRECTION ( 'NONE',  ( 0.000000000000000000, 0.000000000000000000, -1.000000000000000000 ) ) ;
#215 = EDGE_CURVE ( 'NONE', #64, #101, #48, .T. ) ;
#216 = VECTOR ( 'NONE', #89, 1000.000000000000000 ) ;
#217 = FILL_AREA_STYLE ('',( #2 ) ) ;
ENDSEC;
END-ISO-10303-21;
