ISO-10303-21;
HEADER;
FILE_DESCRIPTION (( 'STEP AP214' ),
    '1' );
FILE_NAME ('P-108-Placeholder 12V 60Ah.STEP',
    '2021-09-24T11:43:21',
    ( '' ),
    ( '' ),
    'SwSTEP 2.0',
    'SolidWorks 2021',
    '' );
FILE_SCHEMA (( 'AUTOMOTIVE_DESIGN' ));
ENDSEC;

DATA;
#1 = ORIENTED_EDGE ( 'NONE', *, *, #161, .F. ) ;
#2 = AXIS2_PLACEMENT_3D ( 'NONE', #18, #6, #16 ) ;
#3 = LINE ( 'NONE', #4, #78 ) ;
#4 = CARTESIAN_POINT ( 'NONE',  ( -129.9999999999999432, 0.000000000000000000, 85.00000000000002842 ) ) ;
#5 = DIRECTION ( 'NONE',  ( 0.000000000000000000, 0.000000000000000000, 1.000000000000000000 ) ) ;
#6 = DIRECTION ( 'NONE',  ( 1.067522139062650425E-16, -0.000000000000000000, 1.000000000000000000 ) ) ;
#7 = CARTESIAN_POINT ( 'NONE',  ( 130.0000000000000568, 220.0000000000000000, 85.00000000000000000 ) ) ;
#8 = EDGE_CURVE ( 'NONE', #105, #141, #47, .T. ) ;
#9 =( NAMED_UNIT ( * ) PLANE_ANGLE_UNIT ( ) SI_UNIT ( $, .RADIAN. ) );
#10 =( GEOMETRIC_REPRESENTATION_CONTEXT ( 3 ) GLOBAL_UNCERTAINTY_ASSIGNED_CONTEXT ( ( #140 ) ) GLOBAL_UNIT_ASSIGNED_CONTEXT ( ( #179, #154, #41 ) ) REPRESENTATION_CONTEXT ( 'NONE', 'WORKASPACE' ) );
#11 = ORIENTED_EDGE ( 'NONE', *, *, #157, .F. ) ;
#12 = ORIENTED_EDGE ( 'NONE', *, *, #24, .F. ) ;
#13 = VECTOR ( 'NONE', #102, 1000.000000000000000 ) ;
#14 = MECHANICAL_DESIGN_GEOMETRIC_PRESENTATION_REPRESENTATION (  '', ( #83 ), #10 ) ;
#15 = EDGE_LOOP ( 'NONE', ( #164, #200, #129, #11 ) ) ;
#16 = DIRECTION ( 'NONE',  ( 1.000000000000000000, 0.000000000000000000, -1.067522139062650425E-16 ) ) ;
#17 = LINE ( 'NONE', #150, #110 ) ;
#18 = CARTESIAN_POINT ( 'NONE',  ( 130.0000000000000568, 220.0000000000000000, -85.00000000000000000 ) ) ;
#19 = CARTESIAN_POINT ( 'NONE',  ( 130.0000000000000568, 0.000000000000000000, 85.00000000000000000 ) ) ;
#20 = DIRECTION ( 'NONE',  ( 1.000000000000000000, -0.000000000000000000, -1.067522139062650425E-16 ) ) ;
#21 = FILL_AREA_STYLE ('',( #113 ) ) ;
#22 = CARTESIAN_POINT ( 'NONE',  ( 130.0000000000000568, 0.000000000000000000, -85.00000000000000000 ) ) ;
#23 = UNCERTAINTY_MEASURE_WITH_UNIT (LENGTH_MEASURE( 1.000000000000000082E-05 ), #127, 'distance_accuracy_value', 'NONE');
#24 = EDGE_CURVE ( 'NONE', #77, #163, #35, .T. ) ;
#25 = LINE ( 'NONE', #114, #32 ) ;
#26 = DIRECTION ( 'NONE',  ( 0.000000000000000000, 0.000000000000000000, 1.000000000000000000 ) ) ;
#27 = CARTESIAN_POINT ( 'NONE',  ( -129.9999999999999432, 220.0000000000000000, 85.00000000000002842 ) ) ;
#28 = AXIS2_PLACEMENT_3D ( 'NONE', #51, #119, #64 ) ;
#29 = EDGE_CURVE ( 'NONE', #45, #92, #152, .T. ) ;
#30 = VERTEX_POINT ( 'NONE', #81 ) ;
#31 = CARTESIAN_POINT ( 'NONE',  ( 130.0000000000000568, 220.0000000000000000, -85.00000000000000000 ) ) ;
#32 = VECTOR ( 'NONE', #87, 1000.000000000000000 ) ;
#33 = LINE ( 'NONE', #34, #170 ) ;
#34 = CARTESIAN_POINT ( 'NONE',  ( -129.9999999999999432, 220.0000000000000000, 85.00000000000002842 ) ) ;
#35 = LINE ( 'NONE', #188, #132 ) ;
#36 = DIRECTION ( 'NONE',  ( -1.000000000000000000, 0.000000000000000000, 1.067522139062650425E-16 ) ) ;
#37 =( NAMED_UNIT ( * ) SI_UNIT ( $, .STERADIAN. ) SOLID_ANGLE_UNIT ( ) );
#38 = FILL_AREA_STYLE ('',( #175 ) ) ;
#39 = EDGE_CURVE ( 'NONE', #45, #77, #33, .T. ) ;
#40 = VECTOR ( 'NONE', #122, 1000.000000000000000 ) ;
#41 =( NAMED_UNIT ( * ) SI_UNIT ( $, .STERADIAN. ) SOLID_ANGLE_UNIT ( ) );
#42 = LINE ( 'NONE', #19, #91 ) ;
#43 = EDGE_CURVE ( 'NONE', #92, #131, #3, .T. ) ;
#44 = ADVANCED_FACE ( 'NONE', ( #62 ), #80, .T. ) ;
#45 = VERTEX_POINT ( 'NONE', #173 ) ;
#46 = AXIS2_PLACEMENT_3D ( 'NONE', #48, #137, #108 ) ;
#47 = LINE ( 'NONE', #31, #177 ) ;
#48 = CARTESIAN_POINT ( 'NONE',  ( 0.000000000000000000, 0.000000000000000000, 0.000000000000000000 ) ) ;
#49 = LINE ( 'NONE', #100, #13 ) ;
#50 = AXIS2_PLACEMENT_3D ( 'NONE', #7, #155, #126 ) ;
#51 = CARTESIAN_POINT ( 'NONE',  ( -129.9999999999999432, 220.0000000000000000, 85.00000000000002842 ) ) ;
#52 = DIRECTION ( 'NONE',  ( 1.000000000000000000, -0.000000000000000000, -1.067522139062650425E-16 ) ) ;
#53 = SURFACE_STYLE_USAGE ( .BOTH. , #84 ) ;
#54 = CARTESIAN_POINT ( 'NONE',  ( 130.0000000000000568, 220.0000000000000000, 85.00000000000000000 ) ) ;
#55 = COLOUR_RGB ( '',0.1019607843137254888, 0.1019607843137254888, 0.1019607843137254888 ) ;
#56 = ORIENTED_EDGE ( 'NONE', *, *, #43, .T. ) ;
#57 = PRODUCT_DEFINITION_FORMATION_WITH_SPECIFIED_SOURCE ( 'ANY', '', #135, .NOT_KNOWN. ) ;
#58 = ADVANCED_FACE ( 'NONE', ( #151 ), #133, .F. ) ;
#59 = ORIENTED_EDGE ( 'NONE', *, *, #60, .F. ) ;
#60 = EDGE_CURVE ( 'NONE', #105, #45, #17, .T. ) ;
#61 = PRODUCT_DEFINITION_SHAPE ( 'NONE', 'NONE',  #191 ) ;
#62 = FACE_OUTER_BOUND ( 'NONE', #89, .T. ) ;
#63 =( LENGTH_UNIT ( ) NAMED_UNIT ( * ) SI_UNIT ( .MILLI., .METRE. ) );
#64 = DIRECTION ( 'NONE',  ( 0.000000000000000000, 0.000000000000000000, -1.000000000000000000 ) ) ;
#65 = VECTOR ( 'NONE', #112, 1000.000000000000000 ) ;
#66 =( GEOMETRIC_REPRESENTATION_CONTEXT ( 3 ) GLOBAL_UNCERTAINTY_ASSIGNED_CONTEXT ( ( #23 ) ) GLOBAL_UNIT_ASSIGNED_CONTEXT ( ( #127, #9, #37 ) ) REPRESENTATION_CONTEXT ( 'NONE', 'WORKASPACE' ) );
#67 = CARTESIAN_POINT ( 'NONE',  ( -129.9999999999999432, 220.0000000000000000, -84.99999999999997158 ) ) ;
#68 = ADVANCED_FACE ( 'NONE', ( #79 ), #190, .F. ) ;
#69 = PRESENTATION_STYLE_ASSIGNMENT (( #53 ) ) ;
#70 = PRODUCT_DEFINITION_CONTEXT ( 'detailed design', #193, 'design' ) ;
#71 = SURFACE_STYLE_USAGE ( .BOTH. , #139 ) ;
#72 = AXIS2_PLACEMENT_3D ( 'NONE', #109, #123, #5 ) ;
#73 = CARTESIAN_POINT ( 'NONE',  ( -129.9999999999999432, 0.000000000000000000, 85.00000000000002842 ) ) ;
#74 = ADVANCED_FACE ( 'NONE', ( #94 ), #189, .F. ) ;
#75 = ORIENTED_EDGE ( 'NONE', *, *, #39, .F. ) ;
#76 = EDGE_LOOP ( 'NONE', ( #182, #199, #59, #142 ) ) ;
#77 = VERTEX_POINT ( 'NONE', #120 ) ;
#78 = VECTOR ( 'NONE', #134, 1000.000000000000000 ) ;
#79 = FACE_OUTER_BOUND ( 'NONE', #104, .T. ) ;
#80 = PLANE ( 'NONE',  #88 ) ;
#81 = CARTESIAN_POINT ( 'NONE',  ( 130.0000000000000568, 0.000000000000000000, 85.00000000000000000 ) ) ;
#82 = PLANE ( 'NONE',  #46 ) ;
#83 = STYLED_ITEM ( 'NONE', ( #69 ), #174 ) ;
#84 = SURFACE_SIDE_STYLE ('',( #195 ) ) ;
#85 = DIRECTION ( 'NONE',  ( 0.000000000000000000, 0.000000000000000000, -1.000000000000000000 ) ) ;
#86 = SURFACE_STYLE_FILL_AREA ( #38 ) ;
#87 = DIRECTION ( 'NONE',  ( -0.000000000000000000, -1.000000000000000000, -0.000000000000000000 ) ) ;
#88 = AXIS2_PLACEMENT_3D ( 'NONE', #97, #124, #167 ) ;
#89 = EDGE_LOOP ( 'NONE', ( #93, #117, #181, #202 ) ) ;
#90 = EDGE_LOOP ( 'NONE', ( #159, #1, #12, #162 ) ) ;
#91 = VECTOR ( 'NONE', #20, 1000.000000000000000 ) ;
#92 = VERTEX_POINT ( 'NONE', #148 ) ;
#93 = ORIENTED_EDGE ( 'NONE', *, *, #39, .T. ) ;
#94 = FACE_OUTER_BOUND ( 'NONE', #184, .T. ) ;
#95 = LINE ( 'NONE', #186, #40 ) ;
#96 = AXIS2_PLACEMENT_3D ( 'NONE', #172, #26, #136 ) ;
#97 = CARTESIAN_POINT ( 'NONE',  ( 0.000000000000000000, 220.0000000000000000, 0.000000000000000000 ) ) ;
#98 = COLOUR_RGB ( '',0.1019607843137254888, 0.1019607843137254888, 0.1019607843137254888 ) ;
#99 =( NAMED_UNIT ( * ) SI_UNIT ( $, .STERADIAN. ) SOLID_ANGLE_UNIT ( ) );
#100 = CARTESIAN_POINT ( 'NONE',  ( 130.0000000000000568, 0.000000000000000000, -85.00000000000000000 ) ) ;
#101 = VECTOR ( 'NONE', #166, 1000.000000000000000 ) ;
#102 = DIRECTION ( 'NONE',  ( -1.000000000000000000, 0.000000000000000000, 1.067522139062650425E-16 ) ) ;
#103 = ADVANCED_FACE ( 'NONE', ( #153 ), #82, .F. ) ;
#104 = EDGE_LOOP ( 'NONE', ( #107, #146, #118, #116 ) ) ;
#105 = VERTEX_POINT ( 'NONE', #165 ) ;
#106 = EDGE_CURVE ( 'NONE', #30, #141, #95, .T. ) ;
#107 = ORIENTED_EDGE ( 'NONE', *, *, #106, .T. ) ;
#108 = DIRECTION ( 'NONE',  ( 0.000000000000000000, -0.000000000000000000, 1.000000000000000000 ) ) ;
#109 = CARTESIAN_POINT ( 'NONE',  ( 130.0000000000000568, 220.0000000000000000, 85.00000000000000000 ) ) ;
#110 = VECTOR ( 'NONE', #36, 1000.000000000000000 ) ;
#111 = SHAPE_DEFINITION_REPRESENTATION ( #61, #174 ) ;
#112 = DIRECTION ( 'NONE',  ( -0.000000000000000000, -1.000000000000000000, -0.000000000000000000 ) ) ;
#113 = FILL_AREA_STYLE_COLOUR ( '', #98 ) ;
#114 = CARTESIAN_POINT ( 'NONE',  ( 130.0000000000000568, 220.0000000000000000, 85.00000000000000000 ) ) ;
#115 = EDGE_CURVE ( 'NONE', #141, #92, #49, .T. ) ;
#116 = ORIENTED_EDGE ( 'NONE', *, *, #161, .T. ) ;
#117 = ORIENTED_EDGE ( 'NONE', *, *, #24, .T. ) ;
#118 = ORIENTED_EDGE ( 'NONE', *, *, #130, .F. ) ;
#119 = DIRECTION ( 'NONE',  ( 1.000000000000000000, -0.000000000000000000, 0.000000000000000000 ) ) ;
#120 = CARTESIAN_POINT ( 'NONE',  ( -129.9999999999999432, 220.0000000000000000, 85.00000000000002842 ) ) ;
#121 = ADVANCED_FACE ( 'NONE', ( #194 ), #158, .F. ) ;
#122 = DIRECTION ( 'NONE',  ( 0.000000000000000000, 0.000000000000000000, -1.000000000000000000 ) ) ;
#123 = DIRECTION ( 'NONE',  ( -1.000000000000000000, 0.000000000000000000, 0.000000000000000000 ) ) ;
#124 = DIRECTION ( 'NONE',  ( 0.000000000000000000, 1.000000000000000000, 0.000000000000000000 ) ) ;
#125 = PRODUCT_CONTEXT ( 'NONE', #147, 'mechanical' ) ;
#126 = DIRECTION ( 'NONE',  ( -1.000000000000000000, 0.000000000000000000, 1.067522139062650425E-16 ) ) ;
#127 =( LENGTH_UNIT ( ) NAMED_UNIT ( * ) SI_UNIT ( .MILLI., .METRE. ) );
#128 = ORIENTED_EDGE ( 'NONE', *, *, #29, .T. ) ;
#129 = ORIENTED_EDGE ( 'NONE', *, *, #106, .F. ) ;
#130 = EDGE_CURVE ( 'NONE', #163, #105, #156, .T. ) ;
#131 = VERTEX_POINT ( 'NONE', #73 ) ;
#132 = VECTOR ( 'NONE', #52, 1000.000000000000000 ) ;
#133 = PLANE ( 'NONE',  #2 ) ;
#134 = DIRECTION ( 'NONE',  ( -0.000000000000000000, -0.000000000000000000, 1.000000000000000000 ) ) ;
#135 = PRODUCT ( 'P-108-Placeholder 12V 60Ah', 'P-108-Placeholder 12V 60Ah', '', ( #125 ) ) ;
#136 = DIRECTION ( 'NONE',  ( 1.000000000000000000, 0.000000000000000000, 0.000000000000000000 ) ) ;
#137 = DIRECTION ( 'NONE',  ( 0.000000000000000000, 1.000000000000000000, 0.000000000000000000 ) ) ;
#138 = APPLICATION_PROTOCOL_DEFINITION ( 'draft international standard', 'automotive_design', 1998, #193 ) ;
#139 = SURFACE_SIDE_STYLE ('',( #86 ) ) ;
#140 = UNCERTAINTY_MEASURE_WITH_UNIT (LENGTH_MEASURE( 1.000000000000000082E-05 ), #179, 'distance_accuracy_value', 'NONE');
#141 = VERTEX_POINT ( 'NONE', #22 ) ;
#142 = ORIENTED_EDGE ( 'NONE', *, *, #8, .T. ) ;
#143 = DIRECTION ( 'NONE',  ( -0.000000000000000000, -1.000000000000000000, -0.000000000000000000 ) ) ;
#144 = VECTOR ( 'NONE', #85, 1000.000000000000000 ) ;
#145 = ORIENTED_EDGE ( 'NONE', *, *, #149, .F. ) ;
#146 = ORIENTED_EDGE ( 'NONE', *, *, #8, .F. ) ;
#147 = APPLICATION_CONTEXT ( 'automotive_design' ) ;
#148 = CARTESIAN_POINT ( 'NONE',  ( -129.9999999999999432, 0.000000000000000000, -84.99999999999997158 ) ) ;
#149 = EDGE_CURVE ( 'NONE', #77, #131, #192, .T. ) ;
#150 = CARTESIAN_POINT ( 'NONE',  ( 130.0000000000000568, 220.0000000000000000, -85.00000000000000000 ) ) ;
#151 = FACE_OUTER_BOUND ( 'NONE', #76, .T. ) ;
#152 = LINE ( 'NONE', #67, #101 ) ;
#153 = FACE_OUTER_BOUND ( 'NONE', #15, .T. ) ;
#154 =( NAMED_UNIT ( * ) PLANE_ANGLE_UNIT ( ) SI_UNIT ( $, .RADIAN. ) );
#155 = DIRECTION ( 'NONE',  ( -1.067522139062650425E-16, 0.000000000000000000, -1.000000000000000000 ) ) ;
#156 = LINE ( 'NONE', #54, #144 ) ;
#157 = EDGE_CURVE ( 'NONE', #131, #30, #42, .T. ) ;
#158 = PLANE ( 'NONE',  #50 ) ;
#159 = ORIENTED_EDGE ( 'NONE', *, *, #157, .T. ) ;
#160 =( NAMED_UNIT ( * ) PLANE_ANGLE_UNIT ( ) SI_UNIT ( $, .RADIAN. ) );
#161 = EDGE_CURVE ( 'NONE', #163, #30, #25, .T. ) ;
#162 = ORIENTED_EDGE ( 'NONE', *, *, #149, .T. ) ;
#163 = VERTEX_POINT ( 'NONE', #198 ) ;
#164 = ORIENTED_EDGE ( 'NONE', *, *, #43, .F. ) ;
#165 = CARTESIAN_POINT ( 'NONE',  ( 130.0000000000000568, 220.0000000000000000, -85.00000000000000000 ) ) ;
#166 = DIRECTION ( 'NONE',  ( -0.000000000000000000, -1.000000000000000000, -0.000000000000000000 ) ) ;
#167 = DIRECTION ( 'NONE',  ( 0.000000000000000000, -0.000000000000000000, 1.000000000000000000 ) ) ;
#168 = UNCERTAINTY_MEASURE_WITH_UNIT (LENGTH_MEASURE( 1.000000000000000082E-05 ), #63, 'distance_accuracy_value', 'NONE');
#169 = PRODUCT_RELATED_PRODUCT_CATEGORY ( 'part', '', ( #135 ) ) ;
#170 = VECTOR ( 'NONE', #185, 1000.000000000000000 ) ;
#171 = PRESENTATION_LAYER_ASSIGNMENT (  '', '', ( #83 ) ) ;
#172 = CARTESIAN_POINT ( 'NONE',  ( 0.000000000000000000, 0.000000000000000000, 0.000000000000000000 ) ) ;
#173 = CARTESIAN_POINT ( 'NONE',  ( -129.9999999999999432, 220.0000000000000000, -84.99999999999997158 ) ) ;
#174 = ADVANCED_BREP_SHAPE_REPRESENTATION ( 'P-108-Placeholder 12V 60Ah', ( #180, #96 ), #183 ) ;
#175 = FILL_AREA_STYLE_COLOUR ( '', #55 ) ;
#176 = APPLICATION_PROTOCOL_DEFINITION ( 'draft international standard', 'automotive_design', 1998, #147 ) ;
#177 = VECTOR ( 'NONE', #143, 1000.000000000000000 ) ;
#178 = PRESENTATION_LAYER_ASSIGNMENT (  '', '', ( #197 ) ) ;
#179 =( LENGTH_UNIT ( ) NAMED_UNIT ( * ) SI_UNIT ( .MILLI., .METRE. ) );
#180 = MANIFOLD_SOLID_BREP ( 'Boss-Extrude1', #201 ) ;
#181 = ORIENTED_EDGE ( 'NONE', *, *, #130, .T. ) ;
#182 = ORIENTED_EDGE ( 'NONE', *, *, #115, .T. ) ;
#183 =( GEOMETRIC_REPRESENTATION_CONTEXT ( 3 ) GLOBAL_UNCERTAINTY_ASSIGNED_CONTEXT ( ( #168 ) ) GLOBAL_UNIT_ASSIGNED_CONTEXT ( ( #63, #160, #99 ) ) REPRESENTATION_CONTEXT ( 'NONE', 'WORKASPACE' ) );
#184 = EDGE_LOOP ( 'NONE', ( #56, #145, #75, #128 ) ) ;
#185 = DIRECTION ( 'NONE',  ( -0.000000000000000000, -0.000000000000000000, 1.000000000000000000 ) ) ;
#186 = CARTESIAN_POINT ( 'NONE',  ( 130.0000000000000568, 0.000000000000000000, 85.00000000000000000 ) ) ;
#187 = MECHANICAL_DESIGN_GEOMETRIC_PRESENTATION_REPRESENTATION (  '', ( #197 ), #66 ) ;
#188 = CARTESIAN_POINT ( 'NONE',  ( 130.0000000000000568, 220.0000000000000000, 85.00000000000000000 ) ) ;
#189 = PLANE ( 'NONE',  #28 ) ;
#190 = PLANE ( 'NONE',  #72 ) ;
#191 = PRODUCT_DEFINITION ( 'UNKNOWN', '', #57, #70 ) ;
#192 = LINE ( 'NONE', #27, #65 ) ;
#193 = APPLICATION_CONTEXT ( 'automotive_design' ) ;
#194 = FACE_OUTER_BOUND ( 'NONE', #90, .T. ) ;
#195 = SURFACE_STYLE_FILL_AREA ( #21 ) ;
#196 = PRESENTATION_STYLE_ASSIGNMENT (( #71 ) ) ;
#197 = STYLED_ITEM ( 'NONE', ( #196 ), #180 ) ;
#198 = CARTESIAN_POINT ( 'NONE',  ( 130.0000000000000568, 220.0000000000000000, 85.00000000000000000 ) ) ;
#199 = ORIENTED_EDGE ( 'NONE', *, *, #29, .F. ) ;
#200 = ORIENTED_EDGE ( 'NONE', *, *, #115, .F. ) ;
#201 = CLOSED_SHELL ( 'NONE', ( #74, #121, #68, #58, #44, #103 ) ) ;
#202 = ORIENTED_EDGE ( 'NONE', *, *, #60, .T. ) ;
ENDSEC;
END-ISO-10303-21;
