ISO-10303-21;
HEADER;
FILE_DESCRIPTION (( 'STEP AP214' ),
    '1' );
FILE_NAME ('P-108-Placeholder 12V 200Ah.STEP',
    '2021-09-24T11:43:32',
    ( '' ),
    ( '' ),
    'SwSTEP 2.0',
    'SolidWorks 2021',
    '' );
FILE_SCHEMA (( 'AUTOMOTIVE_DESIGN' ));
ENDSEC;

DATA;
#1 = FILL_AREA_STYLE_COLOUR ( '', #154 ) ;
#2 = ORIENTED_EDGE ( 'NONE', *, *, #183, .T. ) ;
#3 = ORIENTED_EDGE ( 'NONE', *, *, #198, .T. ) ;
#4 = PLANE ( 'NONE',  #61 ) ;
#5 = EDGE_CURVE ( 'NONE', #176, #163, #152, .T. ) ;
#6 = COLOUR_RGB ( '',0.2000000000000000111, 0.2000000000000000111, 0.2000000000000000111 ) ;
#7 = CARTESIAN_POINT ( 'NONE',  ( 259.9999999999998863, 230.0000000000000000, -135.0000000000000568 ) ) ;
#8 = UNCERTAINTY_MEASURE_WITH_UNIT (LENGTH_MEASURE( 1.000000000000000082E-05 ), #33, 'distance_accuracy_value', 'NONE');
#9 = PLANE ( 'NONE',  #102 ) ;
#10 = PRODUCT_RELATED_PRODUCT_CATEGORY ( 'part', '', ( #207 ) ) ;
#11 = FACE_OUTER_BOUND ( 'NONE', #46, .T. ) ;
#12 =( GEOMETRIC_REPRESENTATION_CONTEXT ( 3 ) GLOBAL_UNCERTAINTY_ASSIGNED_CONTEXT ( ( #8 ) ) GLOBAL_UNIT_ASSIGNED_CONTEXT ( ( #33, #56, #128 ) ) REPRESENTATION_CONTEXT ( 'NONE', 'WORKASPACE' ) );
#13 = UNCERTAINTY_MEASURE_WITH_UNIT (LENGTH_MEASURE( 1.000000000000000082E-05 ), #35, 'distance_accuracy_value', 'NONE');
#14 = DIRECTION ( 'NONE',  ( 0.000000000000000000, 0.000000000000000000, -1.000000000000000000 ) ) ;
#15 = DIRECTION ( 'NONE',  ( -1.601283208593975267E-16, 0.000000000000000000, -1.000000000000000000 ) ) ;
#16 = UNCERTAINTY_MEASURE_WITH_UNIT (LENGTH_MEASURE( 1.000000000000000082E-05 ), #123, 'distance_accuracy_value', 'NONE');
#17 =( NAMED_UNIT ( * ) PLANE_ANGLE_UNIT ( ) SI_UNIT ( $, .RADIAN. ) );
#18 = PRESENTATION_LAYER_ASSIGNMENT (  '', '', ( #153 ) ) ;
#19 = EDGE_LOOP ( 'NONE', ( #3, #160, #182, #57 ) ) ;
#20 = CARTESIAN_POINT ( 'NONE',  ( -260.0000000000001137, 230.0000000000000000, -135.0000000000000000 ) ) ;
#21 = ORIENTED_EDGE ( 'NONE', *, *, #47, .T. ) ;
#22 = ADVANCED_FACE ( 'NONE', ( #11 ), #116, .F. ) ;
#23 = ORIENTED_EDGE ( 'NONE', *, *, #27, .T. ) ;
#24 = CARTESIAN_POINT ( 'NONE',  ( 259.9999999999998863, 230.0000000000000000, -135.0000000000000568 ) ) ;
#25 = DIRECTION ( 'NONE',  ( 1.000000000000000000, 0.000000000000000000, -1.067522139062650425E-16 ) ) ;
#26 = VECTOR ( 'NONE', #41, 1000.000000000000000 ) ;
#27 = EDGE_CURVE ( 'NONE', #60, #163, #186, .T. ) ;
#28 = VECTOR ( 'NONE', #187, 1000.000000000000000 ) ;
#29 = LINE ( 'NONE', #74, #77 ) ;
#30 = CARTESIAN_POINT ( 'NONE',  ( -260.0000000000001137, 230.0000000000000000, 135.0000000000000000 ) ) ;
#31 = ORIENTED_EDGE ( 'NONE', *, *, #132, .T. ) ;
#32 = SURFACE_STYLE_USAGE ( .BOTH. , #125 ) ;
#33 =( LENGTH_UNIT ( ) NAMED_UNIT ( * ) SI_UNIT ( .MILLI., .METRE. ) );
#34 = COLOUR_RGB ( '',0.1019607843137254888, 0.1019607843137254888, 0.1019607843137254888 ) ;
#35 =( LENGTH_UNIT ( ) NAMED_UNIT ( * ) SI_UNIT ( .MILLI., .METRE. ) );
#36 =( NAMED_UNIT ( * ) SI_UNIT ( $, .STERADIAN. ) SOLID_ANGLE_UNIT ( ) );
#37 = VECTOR ( 'NONE', #168, 1000.000000000000000 ) ;
#38 = PRODUCT_CONTEXT ( 'NONE', #155, 'mechanical' ) ;
#39 = LINE ( 'NONE', #147, #26 ) ;
#40 = EDGE_CURVE ( 'NONE', #115, #119, #29, .T. ) ;
#41 = DIRECTION ( 'NONE',  ( -1.000000000000000000, 0.000000000000000000, 1.067522139062650425E-16 ) ) ;
#42 = VECTOR ( 'NONE', #190, 1000.000000000000000 ) ;
#43 = LINE ( 'NONE', #45, #124 ) ;
#44 = PRODUCT_DEFINITION_CONTEXT ( 'detailed design', #181, 'design' ) ;
#45 = CARTESIAN_POINT ( 'NONE',  ( 259.9999999999998863, 230.0000000000000000, -135.0000000000000568 ) ) ;
#46 = EDGE_LOOP ( 'NONE', ( #84, #172, #189, #158 ) ) ;
#47 = EDGE_CURVE ( 'NONE', #95, #60, #39, .T. ) ;
#48 = ADVANCED_BREP_SHAPE_REPRESENTATION ( 'P-108-Placeholder 12V 200Ah', ( #214, #63 ), #12 ) ;
#49 = SURFACE_STYLE_FILL_AREA ( #81 ) ;
#50 = DIRECTION ( 'NONE',  ( 0.000000000000000000, 1.000000000000000000, 0.000000000000000000 ) ) ;
#51 = VECTOR ( 'NONE', #106, 1000.000000000000000 ) ;
#52 = VERTEX_POINT ( 'NONE', #24 ) ;
#53 = LINE ( 'NONE', #161, #137 ) ;
#54 = EDGE_CURVE ( 'NONE', #52, #194, #43, .T. ) ;
#55 = CLOSED_SHELL ( 'NONE', ( #145, #216, #22, #85, #148, #110 ) ) ;
#56 =( NAMED_UNIT ( * ) PLANE_ANGLE_UNIT ( ) SI_UNIT ( $, .RADIAN. ) );
#57 = ORIENTED_EDGE ( 'NONE', *, *, #5, .T. ) ;
#58 = EDGE_LOOP ( 'NONE', ( #31, #178, #2, #197 ) ) ;
#59 = CARTESIAN_POINT ( 'NONE',  ( 259.9999999999998863, 230.0000000000000000, 134.9999999999999147 ) ) ;
#60 = VERTEX_POINT ( 'NONE', #105 ) ;
#61 = AXIS2_PLACEMENT_3D ( 'NONE', #117, #166, #76 ) ;
#62 = ORIENTED_EDGE ( 'NONE', *, *, #198, .F. ) ;
#63 = AXIS2_PLACEMENT_3D ( 'NONE', #143, #162, #140 ) ;
#64 = DIRECTION ( 'NONE',  ( 0.000000000000000000, 0.000000000000000000, -1.000000000000000000 ) ) ;
#65 = PLANE ( 'NONE',  #211 ) ;
#66 = PRESENTATION_STYLE_ASSIGNMENT (( #179 ) ) ;
#67 = EDGE_CURVE ( 'NONE', #52, #95, #205, .T. ) ;
#68 = CARTESIAN_POINT ( 'NONE',  ( 0.000000000000000000, 230.0000000000000000, 0.000000000000000000 ) ) ;
#69 = MECHANICAL_DESIGN_GEOMETRIC_PRESENTATION_REPRESENTATION (  '', ( #149 ), #200 ) ;
#70 = DIRECTION ( 'NONE',  ( -0.000000000000000000, -1.000000000000000000, -0.000000000000000000 ) ) ;
#71 = EDGE_LOOP ( 'NONE', ( #21, #92, #73, #141 ) ) ;
#72 = PRESENTATION_STYLE_ASSIGNMENT (( #104 ) ) ;
#73 = ORIENTED_EDGE ( 'NONE', *, *, #54, .F. ) ;
#74 = CARTESIAN_POINT ( 'NONE',  ( 259.9999999999998863, 230.0000000000000000, 134.9999999999999147 ) ) ;
#75 = PRESENTATION_LAYER_ASSIGNMENT (  '', '', ( #149 ) ) ;
#76 = DIRECTION ( 'NONE',  ( 0.000000000000000000, -0.000000000000000000, 1.000000000000000000 ) ) ;
#77 = VECTOR ( 'NONE', #135, 1000.000000000000000 ) ;
#78 = CARTESIAN_POINT ( 'NONE',  ( 259.9999999999998863, 0.000000000000000000, -135.0000000000000568 ) ) ;
#79 = CARTESIAN_POINT ( 'NONE',  ( -260.0000000000001137, 230.0000000000000000, 135.0000000000000000 ) ) ;
#80 = PRESENTATION_LAYER_ASSIGNMENT (  '', '', ( #89 ) ) ;
#81 = FILL_AREA_STYLE ('',( #97 ) ) ;
#82 = CARTESIAN_POINT ( 'NONE',  ( -260.0000000000001137, 230.0000000000000000, 135.0000000000000000 ) ) ;
#83 =( NAMED_UNIT ( * ) PLANE_ANGLE_UNIT ( ) SI_UNIT ( $, .RADIAN. ) );
#84 = ORIENTED_EDGE ( 'NONE', *, *, #213, .T. ) ;
#85 = ADVANCED_FACE ( 'NONE', ( #103 ), #165, .F. ) ;
#86 = SHAPE_DEFINITION_REPRESENTATION ( #96, #48 ) ;
#87 = ORIENTED_EDGE ( 'NONE', *, *, #171, .T. ) ;
#88 = DIRECTION ( 'NONE',  ( -1.000000000000000000, 0.000000000000000000, 1.067522139062650425E-16 ) ) ;
#89 = STYLED_ITEM ( 'NONE', ( #66 ), #214 ) ;
#90 = ORIENTED_EDGE ( 'NONE', *, *, #213, .F. ) ;
#91 = DIRECTION ( 'NONE',  ( -0.000000000000000000, -0.000000000000000000, 1.000000000000000000 ) ) ;
#92 = ORIENTED_EDGE ( 'NONE', *, *, #171, .F. ) ;
#93 = DIRECTION ( 'NONE',  ( 0.000000000000000000, -0.000000000000000000, 1.000000000000000000 ) ) ;
#94 = CARTESIAN_POINT ( 'NONE',  ( 259.9999999999998863, 0.000000000000000000, 134.9999999999999147 ) ) ;
#95 = VERTEX_POINT ( 'NONE', #78 ) ;
#96 = PRODUCT_DEFINITION_SHAPE ( 'NONE', 'NONE',  #98 ) ;
#97 = FILL_AREA_STYLE_COLOUR ( '', #6 ) ;
#98 = PRODUCT_DEFINITION ( 'UNKNOWN', '', #136, #44 ) ;
#99 = EDGE_LOOP ( 'NONE', ( #23, #184, #144, #87 ) ) ;
#100 = LINE ( 'NONE', #177, #169 ) ;
#101 = SURFACE_STYLE_FILL_AREA ( #180 ) ;
#102 = AXIS2_PLACEMENT_3D ( 'NONE', #79, #206, #64 ) ;
#103 = FACE_OUTER_BOUND ( 'NONE', #71, .T. ) ;
#104 = SURFACE_STYLE_USAGE ( .BOTH. , #185 ) ;
#105 = CARTESIAN_POINT ( 'NONE',  ( -260.0000000000001137, 0.000000000000000000, -135.0000000000000000 ) ) ;
#106 = DIRECTION ( 'NONE',  ( -0.000000000000000000, -0.000000000000000000, 1.000000000000000000 ) ) ;
#107 = CARTESIAN_POINT ( 'NONE',  ( 259.9999999999998863, 0.000000000000000000, 134.9999999999999147 ) ) ;
#108 = DIRECTION ( 'NONE',  ( -0.000000000000000000, -1.000000000000000000, -0.000000000000000000 ) ) ;
#109 = FILL_AREA_STYLE ('',( #122 ) ) ;
#110 = ADVANCED_FACE ( 'NONE', ( #202 ), #4, .F. ) ;
#111 = EDGE_LOOP ( 'NONE', ( #142, #217, #90, #62 ) ) ;
#112 = PLANE ( 'NONE',  #113 ) ;
#113 = AXIS2_PLACEMENT_3D ( 'NONE', #68, #50, #93 ) ;
#114 =( NAMED_UNIT ( * ) PLANE_ANGLE_UNIT ( ) SI_UNIT ( $, .RADIAN. ) );
#115 = VERTEX_POINT ( 'NONE', #134 ) ;
#116 = PLANE ( 'NONE',  #164 ) ;
#117 = CARTESIAN_POINT ( 'NONE',  ( 0.000000000000000000, 0.000000000000000000, 0.000000000000000000 ) ) ;
#118 = EDGE_CURVE ( 'NONE', #176, #115, #203, .T. ) ;
#119 = VERTEX_POINT ( 'NONE', #107 ) ;
#120 = CARTESIAN_POINT ( 'NONE',  ( 259.9999999999998863, 230.0000000000000000, 134.9999999999999147 ) ) ;
#121 = DIRECTION ( 'NONE',  ( 1.067522139062650425E-16, -0.000000000000000000, 1.000000000000000000 ) ) ;
#122 = FILL_AREA_STYLE_COLOUR ( '', #34 ) ;
#123 =( LENGTH_UNIT ( ) NAMED_UNIT ( * ) SI_UNIT ( .MILLI., .METRE. ) );
#124 = VECTOR ( 'NONE', #88, 1000.000000000000000 ) ;
#125 = SURFACE_SIDE_STYLE ('',( #49 ) ) ;
#126 = FACE_OUTER_BOUND ( 'NONE', #19, .T. ) ;
#127 = CARTESIAN_POINT ( 'NONE',  ( -260.0000000000001137, 0.000000000000000000, 135.0000000000000000 ) ) ;
#128 =( NAMED_UNIT ( * ) SI_UNIT ( $, .STERADIAN. ) SOLID_ANGLE_UNIT ( ) );
#129 = DIRECTION ( 'NONE',  ( 0.000000000000000000, 0.000000000000000000, 1.000000000000000000 ) ) ;
#130 = VECTOR ( 'NONE', #70, 1000.000000000000000 ) ;
#131 = CARTESIAN_POINT ( 'NONE',  ( 259.9999999999998863, 230.0000000000000000, -135.0000000000000568 ) ) ;
#132 = EDGE_CURVE ( 'NONE', #194, #176, #170, .T. ) ;
#133 = CARTESIAN_POINT ( 'NONE',  ( -260.0000000000001137, 230.0000000000000000, 135.0000000000000000 ) ) ;
#134 = CARTESIAN_POINT ( 'NONE',  ( 259.9999999999998863, 230.0000000000000000, 134.9999999999999147 ) ) ;
#135 = DIRECTION ( 'NONE',  ( -0.000000000000000000, -1.000000000000000000, -0.000000000000000000 ) ) ;
#136 = PRODUCT_DEFINITION_FORMATION_WITH_SPECIFIED_SOURCE ( 'ANY', '', #207, .NOT_KNOWN. ) ;
#137 = VECTOR ( 'NONE', #192, 1000.000000000000000 ) ;
#138 = LINE ( 'NONE', #94, #42 ) ;
#139 = AXIS2_PLACEMENT_3D ( 'NONE', #131, #121, #25 ) ;
#140 = DIRECTION ( 'NONE',  ( 1.000000000000000000, 0.000000000000000000, 0.000000000000000000 ) ) ;
#141 = ORIENTED_EDGE ( 'NONE', *, *, #67, .T. ) ;
#142 = ORIENTED_EDGE ( 'NONE', *, *, #27, .F. ) ;
#143 = CARTESIAN_POINT ( 'NONE',  ( 0.000000000000000000, 0.000000000000000000, 0.000000000000000000 ) ) ;
#144 = ORIENTED_EDGE ( 'NONE', *, *, #132, .F. ) ;
#145 = ADVANCED_FACE ( 'NONE', ( #151 ), #9, .F. ) ;
#146 =( GEOMETRIC_REPRESENTATION_CONTEXT ( 3 ) GLOBAL_UNCERTAINTY_ASSIGNED_CONTEXT ( ( #209 ) ) GLOBAL_UNIT_ASSIGNED_CONTEXT ( ( #196, #114, #36 ) ) REPRESENTATION_CONTEXT ( 'NONE', 'WORKASPACE' ) );
#147 = CARTESIAN_POINT ( 'NONE',  ( 259.9999999999998863, 0.000000000000000000, -135.0000000000000568 ) ) ;
#148 = ADVANCED_FACE ( 'NONE', ( #208 ), #112, .T. ) ;
#149 = STYLED_ITEM ( 'NONE', ( #159 ), #148 ) ;
#150 = DIRECTION ( 'NONE',  ( -1.000000000000000000, 0.000000000000000000, 0.000000000000000000 ) ) ;
#151 = FACE_OUTER_BOUND ( 'NONE', #99, .T. ) ;
#152 = LINE ( 'NONE', #133, #167 ) ;
#153 = STYLED_ITEM ( 'NONE', ( #72 ), #48 ) ;
#154 = COLOUR_RGB ( '',0.1019607843137254888, 0.1019607843137254888, 0.1019607843137254888 ) ;
#155 = APPLICATION_CONTEXT ( 'automotive_design' ) ;
#156 = LINE ( 'NONE', #195, #130 ) ;
#157 =( NAMED_UNIT ( * ) SI_UNIT ( $, .STERADIAN. ) SOLID_ANGLE_UNIT ( ) );
#158 = ORIENTED_EDGE ( 'NONE', *, *, #40, .T. ) ;
#159 = PRESENTATION_STYLE_ASSIGNMENT (( #32 ) ) ;
#160 = ORIENTED_EDGE ( 'NONE', *, *, #40, .F. ) ;
#161 = CARTESIAN_POINT ( 'NONE',  ( 259.9999999999998863, 0.000000000000000000, 134.9999999999999147 ) ) ;
#162 = DIRECTION ( 'NONE',  ( 0.000000000000000000, 0.000000000000000000, 1.000000000000000000 ) ) ;
#163 = VERTEX_POINT ( 'NONE', #127 ) ;
#164 = AXIS2_PLACEMENT_3D ( 'NONE', #59, #150, #129 ) ;
#165 = PLANE ( 'NONE',  #139 ) ;
#166 = DIRECTION ( 'NONE',  ( 0.000000000000000000, 1.000000000000000000, 0.000000000000000000 ) ) ;
#167 = VECTOR ( 'NONE', #108, 1000.000000000000000 ) ;
#168 = DIRECTION ( 'NONE',  ( -0.000000000000000000, -1.000000000000000000, -0.000000000000000000 ) ) ;
#169 = VECTOR ( 'NONE', #14, 1000.000000000000000 ) ;
#170 = LINE ( 'NONE', #30, #191 ) ;
#171 = EDGE_CURVE ( 'NONE', #194, #60, #156, .T. ) ;
#172 = ORIENTED_EDGE ( 'NONE', *, *, #67, .F. ) ;
#173 = SURFACE_STYLE_FILL_AREA ( #109 ) ;
#174 = MECHANICAL_DESIGN_GEOMETRIC_PRESENTATION_REPRESENTATION (  '', ( #89 ), #204 ) ;
#175 = CARTESIAN_POINT ( 'NONE',  ( 259.9999999999998863, 230.0000000000000000, 134.9999999999999147 ) ) ;
#176 = VERTEX_POINT ( 'NONE', #82 ) ;
#177 = CARTESIAN_POINT ( 'NONE',  ( 259.9999999999998863, 230.0000000000000000, 134.9999999999999147 ) ) ;
#178 = ORIENTED_EDGE ( 'NONE', *, *, #118, .T. ) ;
#179 = SURFACE_STYLE_USAGE ( .BOTH. , #210 ) ;
#180 = FILL_AREA_STYLE ('',( #1 ) ) ;
#181 = APPLICATION_CONTEXT ( 'automotive_design' ) ;
#182 = ORIENTED_EDGE ( 'NONE', *, *, #118, .F. ) ;
#183 = EDGE_CURVE ( 'NONE', #115, #52, #100, .T. ) ;
#184 = ORIENTED_EDGE ( 'NONE', *, *, #5, .F. ) ;
#185 = SURFACE_SIDE_STYLE ('',( #101 ) ) ;
#186 = LINE ( 'NONE', #199, #51 ) ;
#187 = DIRECTION ( 'NONE',  ( 1.000000000000000000, -0.000000000000000000, -1.601283208593975514E-16 ) ) ;
#188 = MECHANICAL_DESIGN_GEOMETRIC_PRESENTATION_REPRESENTATION (  '', ( #153 ), #146 ) ;
#189 = ORIENTED_EDGE ( 'NONE', *, *, #183, .F. ) ;
#190 = DIRECTION ( 'NONE',  ( 1.000000000000000000, -0.000000000000000000, -1.601283208593975514E-16 ) ) ;
#191 = VECTOR ( 'NONE', #91, 1000.000000000000000 ) ;
#192 = DIRECTION ( 'NONE',  ( 0.000000000000000000, 0.000000000000000000, -1.000000000000000000 ) ) ;
#193 = DIRECTION ( 'NONE',  ( -1.000000000000000000, 0.000000000000000000, 1.601283208593975267E-16 ) ) ;
#194 = VERTEX_POINT ( 'NONE', #20 ) ;
#195 = CARTESIAN_POINT ( 'NONE',  ( -260.0000000000001137, 230.0000000000000000, -135.0000000000000000 ) ) ;
#196 =( LENGTH_UNIT ( ) NAMED_UNIT ( * ) SI_UNIT ( .MILLI., .METRE. ) );
#197 = ORIENTED_EDGE ( 'NONE', *, *, #54, .T. ) ;
#198 = EDGE_CURVE ( 'NONE', #163, #119, #138, .T. ) ;
#199 = CARTESIAN_POINT ( 'NONE',  ( -260.0000000000001137, 0.000000000000000000, 135.0000000000000000 ) ) ;
#200 =( GEOMETRIC_REPRESENTATION_CONTEXT ( 3 ) GLOBAL_UNCERTAINTY_ASSIGNED_CONTEXT ( ( #16 ) ) GLOBAL_UNIT_ASSIGNED_CONTEXT ( ( #123, #83, #157 ) ) REPRESENTATION_CONTEXT ( 'NONE', 'WORKASPACE' ) );
#201 = APPLICATION_PROTOCOL_DEFINITION ( 'draft international standard', 'automotive_design', 1998, #155 ) ;
#202 = FACE_OUTER_BOUND ( 'NONE', #111, .T. ) ;
#203 = LINE ( 'NONE', #120, #28 ) ;
#204 =( GEOMETRIC_REPRESENTATION_CONTEXT ( 3 ) GLOBAL_UNCERTAINTY_ASSIGNED_CONTEXT ( ( #13 ) ) GLOBAL_UNIT_ASSIGNED_CONTEXT ( ( #35, #17, #212 ) ) REPRESENTATION_CONTEXT ( 'NONE', 'WORKASPACE' ) );
#205 = LINE ( 'NONE', #7, #37 ) ;
#206 = DIRECTION ( 'NONE',  ( 1.000000000000000000, -0.000000000000000000, 0.000000000000000000 ) ) ;
#207 = PRODUCT ( 'P-108-Placeholder 12V 200Ah', 'P-108-Placeholder 12V 200Ah', '', ( #38 ) ) ;
#208 = FACE_OUTER_BOUND ( 'NONE', #58, .T. ) ;
#209 = UNCERTAINTY_MEASURE_WITH_UNIT (LENGTH_MEASURE( 1.000000000000000082E-05 ), #196, 'distance_accuracy_value', 'NONE');
#210 = SURFACE_SIDE_STYLE ('',( #173 ) ) ;
#211 = AXIS2_PLACEMENT_3D ( 'NONE', #175, #15, #193 ) ;
#212 =( NAMED_UNIT ( * ) SI_UNIT ( $, .STERADIAN. ) SOLID_ANGLE_UNIT ( ) );
#213 = EDGE_CURVE ( 'NONE', #119, #95, #53, .T. ) ;
#214 = MANIFOLD_SOLID_BREP ( 'Boss-Extrude1', #55 ) ;
#215 = APPLICATION_PROTOCOL_DEFINITION ( 'draft international standard', 'automotive_design', 1998, #181 ) ;
#216 = ADVANCED_FACE ( 'NONE', ( #126 ), #65, .F. ) ;
#217 = ORIENTED_EDGE ( 'NONE', *, *, #47, .F. ) ;
ENDSEC;
END-ISO-10303-21;
